  0
SECTION
  2
HEADER
  9
$ACADVER
  1
AC1015
  9
$ACADMAINTVER
 70
     6
  9
$DWGCODEPAGE
  3
ANSI_1252
  9
$INSBASE
 10
0.0
 20
0.0
 30
0.0
  9
$EXTMIN
 10
4.123204275245926
 20
2.589909748840907
 30
0.0
  9
$EXTMAX
 10
7.281689396882551
 20
5.748394870477506
 30
0.0
  9
$LIMMIN
 10
0.0
 20
0.0
  9
$LIMMAX
 10
12.0
 20
9.0
  9
$ORTHOMODE
 70
     0
  9
$REGENMODE
 70
     1
  9
$FILLMODE
 70
     1
  9
$QTEXTMODE
 70
     0
  9
$MIRRTEXT
 70
     1
  9
$LTSCALE
 40
1.0
  9
$ATTMODE
 70
     1
  9
$TEXTSIZE
 40
0.2
  9
$TRACEWID
 40
0.05
  9
$TEXTSTYLE
  7
Standard
  9
$CLAYER
  8
0
  9
$CELTYPE
  6
ByLayer
  9
$CECOLOR
 62
   256
  9
$CELTSCALE
 40
1.0
  9
$DISPSILH
 70
     0
  9
$DIMSCALE
 40
1.0
  9
$DIMASZ
 40
0.18
  9
$DIMEXO
 40
0.0625
  9
$DIMDLI
 40
0.38
  9
$DIMRND
 40
0.0
  9
$DIMDLE
 40
0.0
  9
$DIMEXE
 40
0.18
  9
$DIMTP
 40
0.0
  9
$DIMTM
 40
0.0
  9
$DIMTXT
 40
0.18
  9
$DIMCEN
 40
0.09
  9
$DIMTSZ
 40
0.0
  9
$DIMTOL
 70
     0
  9
$DIMLIM
 70
     0
  9
$DIMTIH
 70
     1
  9
$DIMTOH
 70
     1
  9
$DIMSE1
 70
     0
  9
$DIMSE2
 70
     0
  9
$DIMTAD
 70
     0
  9
$DIMZIN
 70
     0
  9
$DIMBLK
  1

  9
$DIMASO
 70
     1
  9
$DIMSHO
 70
     1
  9
$DIMPOST
  1

  9
$DIMAPOST
  1

  9
$DIMALT
 70
     0
  9
$DIMALTD
 70
     2
  9
$DIMALTF
 40
25.4
  9
$DIMLFAC
 40
1.0
  9
$DIMTOFL
 70
     0
  9
$DIMTVP
 40
0.0
  9
$DIMTIX
 70
     0
  9
$DIMSOXD
 70
     0
  9
$DIMSAH
 70
     0
  9
$DIMBLK1
  1

  9
$DIMBLK2
  1

  9
$DIMSTYLE
  2
Standard
  9
$DIMCLRD
 70
     0
  9
$DIMCLRE
 70
     0
  9
$DIMCLRT
 70
     0
  9
$DIMTFAC
 40
1.0
  9
$DIMGAP
 40
0.09
  9
$DIMJUST
 70
     0
  9
$DIMSD1
 70
     0
  9
$DIMSD2
 70
     0
  9
$DIMTOLJ
 70
     1
  9
$DIMTZIN
 70
     0
  9
$DIMALTZ
 70
     0
  9
$DIMALTTZ
 70
     0
  9
$DIMUPT
 70
     0
  9
$DIMDEC
 70
     4
  9
$DIMTDEC
 70
     4
  9
$DIMALTU
 70
     2
  9
$DIMALTTD
 70
     2
  9
$DIMTXSTY
  7
Standard
  9
$DIMAUNIT
 70
     0
  9
$DIMADEC
 70
     0
  9
$DIMALTRND
 40
0.0
  9
$DIMAZIN
 70
     0
  9
$DIMDSEP
 70
    46
  9
$DIMATFIT
 70
     3
  9
$DIMFRAC
 70
     0
  9
$DIMLDRBLK
  1

  9
$DIMLUNIT
 70
     2
  9
$DIMLWD
 70
    -2
  9
$DIMLWE
 70
    -2
  9
$DIMTMOVE
 70
     0
  9
$LUNITS
 70
     2
  9
$LUPREC
 70
     4
  9
$SKETCHINC
 40
0.1
  9
$FILLETRAD
 40
0.5
  9
$AUNITS
 70
     0
  9
$AUPREC
 70
     0
  9
$MENU
  1
.
  9
$ELEVATION
 40
0.0
  9
$PELEVATION
 40
0.0
  9
$THICKNESS
 40
0.0
  9
$LIMCHECK
 70
     0
  9
$CHAMFERA
 40
0.5
  9
$CHAMFERB
 40
0.5
  9
$CHAMFERC
 40
1.0
  9
$CHAMFERD
 40
0.0
  9
$SKPOLY
 70
     0
  9
$TDCREATE
 40
2455598.827646169
  9
$TDUCREATE
 40
2455599.035979502
  9
$TDUPDATE
 40
2455988.548722916
  9
$TDUUPDATE
 40
2455988.757056249
  9
$TDINDWG
 40
0.0146871991
  9
$TDUSRTIMER
 40
0.0146850000
  9
$USRTIMER
 70
     1
  9
$ANGBASE
 50
0.0
  9
$ANGDIR
 70
     0
  9
$PDMODE
 70
     0
  9
$PDSIZE
 40
0.0
  9
$PLINEWID
 40
0.0
  9
$SPLFRAME
 70
     0
  9
$SPLINETYPE
 70
     6
  9
$SPLINESEGS
 70
     8
  9
$HANDSEED
  5
DB
  9
$SURFTAB1
 70
     6
  9
$SURFTAB2
 70
     6
  9
$SURFTYPE
 70
     6
  9
$SURFU
 70
     6
  9
$SURFV
 70
     6
  9
$UCSBASE
  2

  9
$UCSNAME
  2

  9
$UCSORG
 10
5.702446836064232
 20
4.169152309659207
 30
0.0
  9
$UCSXDIR
 10
1.0
 20
0.0
 30
0.0
  9
$UCSYDIR
 10
0.0
 20
1.0
 30
0.0
  9
$UCSORTHOREF
  2

  9
$UCSORTHOVIEW
 70
     0
  9
$UCSORGTOP
 10
0.0
 20
0.0
 30
0.0
  9
$UCSORGBOTTOM
 10
0.0
 20
0.0
 30
0.0
  9
$UCSORGLEFT
 10
0.0
 20
0.0
 30
0.0
  9
$UCSORGRIGHT
 10
0.0
 20
0.0
 30
0.0
  9
$UCSORGFRONT
 10
0.0
 20
0.0
 30
0.0
  9
$UCSORGBACK
 10
0.0
 20
0.0
 30
0.0
  9
$PUCSBASE
  2

  9
$PUCSNAME
  2

  9
$PUCSORG
 10
0.0
 20
0.0
 30
0.0
  9
$PUCSXDIR
 10
1.0
 20
0.0
 30
0.0
  9
$PUCSYDIR
 10
0.0
 20
1.0
 30
0.0
  9
$PUCSORTHOREF
  2

  9
$PUCSORTHOVIEW
 70
     0
  9
$PUCSORGTOP
 10
0.0
 20
0.0
 30
0.0
  9
$PUCSORGBOTTOM
 10
0.0
 20
0.0
 30
0.0
  9
$PUCSORGLEFT
 10
0.0
 20
0.0
 30
0.0
  9
$PUCSORGRIGHT
 10
0.0
 20
0.0
 30
0.0
  9
$PUCSORGFRONT
 10
0.0
 20
0.0
 30
0.0
  9
$PUCSORGBACK
 10
0.0
 20
0.0
 30
0.0
  9
$USERI1
 70
     0
  9
$USERI2
 70
     0
  9
$USERI3
 70
     0
  9
$USERI4
 70
     0
  9
$USERI5
 70
     0
  9
$USERR1
 40
0.0
  9
$USERR2
 40
0.0
  9
$USERR3
 40
0.0
  9
$USERR4
 40
0.0
  9
$USERR5
 40
0.0
  9
$WORLDVIEW
 70
     1
  9
$SHADEDGE
 70
     3
  9
$SHADEDIF
 70
    70
  9
$TILEMODE
 70
     1
  9
$MAXACTVP
 70
    64
  9
$PINSBASE
 10
0.0
 20
0.0
 30
0.0
  9
$PLIMCHECK
 70
     0
  9
$PEXTMIN
 10
1.000000000000000E+20
 20
1.000000000000000E+20
 30
1.000000000000000E+20
  9
$PEXTMAX
 10
-1.000000000000000E+20
 20
-1.000000000000000E+20
 30
-1.000000000000000E+20
  9
$PLIMMIN
 10
0.0
 20
0.0
  9
$PLIMMAX
 10
12.0
 20
9.0
  9
$UNITMODE
 70
     0
  9
$VISRETAIN
 70
     1
  9
$PLINEGEN
 70
     0
  9
$PSLTSCALE
 70
     1
  9
$TREEDEPTH
 70
  3020
  9
$CMLSTYLE
  2
Standard
  9
$CMLJUST
 70
     0
  9
$CMLSCALE
 40
1.0
  9
$PROXYGRAPHICS
 70
     1
  9
$MEASUREMENT
 70
     0
  9
$CELWEIGHT
370
    -1
  9
$ENDCAPS
280
     0
  9
$JOINSTYLE
280
     0
  9
$LWDISPLAY
290
     0
  9
$INSUNITS
 70
     1
  9
$HYPERLINKBASE
  1

  9
$STYLESHEET
  1

  9
$XEDIT
290
     1
  9
$CEPSNTYPE
380
     0
  9
$PSTYLEMODE
290
     1
  9
$FINGERPRINTGUID
  2
{03A3090E-B6BE-4EB3-A35E-87664A9E4017}
  9
$VERSIONGUID
  2
{8A0B478C-602B-4E83-B1E1-78E282D81F6F}
  9
$EXTNAMES
290
     1
  9
$PSVPSCALE
 40
0.0
  9
$OLESTARTUP
290
     0
  0
ENDSEC
  0
SECTION
  2
CLASSES
  0
CLASS
  1
ACDBDICTIONARYWDFLT
  2
AcDbDictionaryWithDefault
  3
AutoCAD 2000
 90
        0
280
     0
281
     0
  0
CLASS
  1
ACDBPLACEHOLDER
  2
AcDbPlaceHolder
  3
AutoCAD 2000
 90
        0
280
     0
281
     0
  0
CLASS
  1
LAYOUT
  2
AcDbLayout
  3
AutoCAD 2000
 90
        0
280
     0
281
     0
  0
ENDSEC
  0
SECTION
  2
TABLES
  0
TABLE
  2
VPORT
  5
8
330
0
100
AcDbSymbolTable
 70
     3
  0
VPORT
  5
DA
330
8
100
AcDbSymbolTableRecord
100
AcDbViewportTableRecord
  2
*Active
 70
     0
 10
0.0
 20
0.0
 11
1.0
 21
1.0
 12
6.85005062791513
 22
3.970042720124172
 13
0.0
 23
0.0
 14
0.5
 24
0.5
 15
0.5
 25
0.5
 16
0.0
 26
0.0
 36
1.0
 17
0.0
 27
0.0
 37
0.0
 40
4.406427706940551
 41
2.244746600741656
 42
50.0
 43
0.0
 44
0.0
 50
0.0
 51
0.0
 71
     0
 72
   100
 73
     1
 74
     3
 75
     0
 76
     0
 77
     0
 78
     0
281
     0
 65
     1
110
5.702446836064232
120
4.169152309659207
130
0.0
111
1.0
121
0.0
131
0.0
112
0.0
122
1.0
132
0.0
 79
     0
146
0.0
  0
ENDTAB
  0
TABLE
  2
LTYPE
  5
5
330
0
100
AcDbSymbolTable
 70
     1
  0
LTYPE
  5
14
330
5
100
AcDbSymbolTableRecord
100
AcDbLinetypeTableRecord
  2
ByBlock
 70
     0
  3

 72
    65
 73
     0
 40
0.0
  0
LTYPE
  5
15
330
5
100
AcDbSymbolTableRecord
100
AcDbLinetypeTableRecord
  2
ByLayer
 70
     0
  3

 72
    65
 73
     0
 40
0.0
  0
LTYPE
  5
16
330
5
100
AcDbSymbolTableRecord
100
AcDbLinetypeTableRecord
  2
Continuous
 70
     0
  3
Solid line
 72
    65
 73
     0
 40
0.0
  0
ENDTAB
  0
TABLE
  2
LAYER
  5
2
330
0
100
AcDbSymbolTable
 70
     8
  0
LAYER
  5
10
330
2
100
AcDbSymbolTableRecord
100
AcDbLayerTableRecord
  2
0
 70
     0
 62
     7
  6
Continuous
370
    -3
390
F
  0
LAYER
  5
2B
330
2
100
AcDbSymbolTableRecord
100
AcDbLayerTableRecord
  2
drill 1 16 inch
 70
     0
 62
   204
  6
Continuous
370
    -3
390
F
  0
LAYER
  5
2C
330
2
100
AcDbSymbolTableRecord
100
AcDbLayerTableRecord
  2
drill 1 8 inch
 70
     0
 62
   230
  6
Continuous
370
    -3
390
F
  0
LAYER
  5
2D
330
2
100
AcDbSymbolTableRecord
100
AcDbLayerTableRecord
  2
drill 3 16 inch
 70
     0
 62
   241
  6
Continuous
370
    -3
390
F
  0
LAYER
  5
2E
330
2
100
AcDbSymbolTableRecord
100
AcDbLayerTableRecord
  2
mill external CW
 70
     0
 62
     2
  6
Continuous
370
    -3
390
F
  0
LAYER
  5
2F
330
2
100
AcDbSymbolTableRecord
100
AcDbLayerTableRecord
  2
mill rotor fins
 70
     0
 62
    42
  6
Continuous
370
    -3
390
F
  0
LAYER
  5
30
330
2
100
AcDbSymbolTableRecord
100
AcDbLayerTableRecord
  2
pocketinterior
 70
     0
 62
   140
  6
Continuous
370
    -3
390
F
  0
LAYER
  5
31
330
2
100
AcDbSymbolTableRecord
100
AcDbLayerTableRecord
  2
construction lines
 70
     0
 62
    14
  6
Continuous
370
    -3
390
F
  0
ENDTAB
  0
TABLE
  2
STYLE
  5
3
330
0
100
AcDbSymbolTable
 70
     1
  0
STYLE
  5
11
330
3
100
AcDbSymbolTableRecord
100
AcDbTextStyleTableRecord
  2
Standard
 70
     0
 40
0.0
 41
1.0
 50
0.0
 71
     0
 42
0.2
  3
txt
  4

  0
ENDTAB
  0
TABLE
  2
VIEW
  5
6
330
0
100
AcDbSymbolTable
 70
     0
  0
ENDTAB
  0
TABLE
  2
UCS
  5
7
330
0
100
AcDbSymbolTable
 70
     0
  0
ENDTAB
  0
TABLE
  2
APPID
  5
9
330
0
100
AcDbSymbolTable
 70
     1
  0
APPID
  5
12
330
9
100
AcDbSymbolTableRecord
100
AcDbRegAppTableRecord
  2
ACAD
 70
     0
  0
ENDTAB
  0
TABLE
  2
DIMSTYLE
  5
A
330
0
100
AcDbSymbolTable
 70
     1
100
AcDbDimStyleTable
 71
     0
  0
DIMSTYLE
105
27
330
A
100
AcDbSymbolTableRecord
100
AcDbDimStyleTableRecord
  2
Standard
 70
     0
340
11
  0
ENDTAB
  0
TABLE
  2
BLOCK_RECORD
  5
1
330
0
100
AcDbSymbolTable
 70
     1
  0
BLOCK_RECORD
  5
1F
330
1
100
AcDbSymbolTableRecord
100
AcDbBlockTableRecord
  2
*Model_Space
340
22
  0
BLOCK_RECORD
  5
1B
330
1
100
AcDbSymbolTableRecord
100
AcDbBlockTableRecord
  2
*Paper_Space
340
1E
  0
BLOCK_RECORD
  5
23
330
1
100
AcDbSymbolTableRecord
100
AcDbBlockTableRecord
  2
*Paper_Space0
340
26
  0
ENDTAB
  0
ENDSEC
  0
SECTION
  2
BLOCKS
  0
BLOCK
  5
20
330
1F
100
AcDbEntity
  8
0
100
AcDbBlockBegin
  2
*Model_Space
 70
     0
 10
0.0
 20
0.0
 30
0.0
  3
*Model_Space
  1

  0
ENDBLK
  5
21
330
1F
100
AcDbEntity
  8
0
100
AcDbBlockEnd
  0
BLOCK
  5
1C
330
1B
100
AcDbEntity
 67
     1
  8
0
100
AcDbBlockBegin
  2
*Paper_Space
 70
     0
 10
0.0
 20
0.0
 30
0.0
  3
*Paper_Space
  1

  0
ENDBLK
  5
1D
330
1B
100
AcDbEntity
 67
     1
  8
0
100
AcDbBlockEnd
  0
BLOCK
  5
24
330
23
100
AcDbEntity
  8
0
100
AcDbBlockBegin
  2
*Paper_Space0
 70
     0
 10
0.0
 20
0.0
 30
0.0
  3
*Paper_Space0
  1

  0
ENDBLK
  5
25
330
23
100
AcDbEntity
  8
0
100
AcDbBlockEnd
  0
ENDSEC
  0
SECTION
  2
ENTITIES
  0
LWPOLYLINE
  5
65
330
1F
100
AcDbEntity
  8
drill 1 8 inch
100
AcDbPolyline
 90
       96
 70
     1
 43
0.0
 10
5.42710832968882
 20
5.707201384593735
 42
-0.2697173747408716
 10
5.600638236355663
 20
5.482129282167679
 42
-0.2023114368293305
 10
5.420676166574445
 20
5.100354060369487
 42
0.0491268497695209
 10
5.244421861571203
 20
5.027490549196093
 42
0.2023114368293305
 10
5.346445359685155
 20
5.437038925302757
 42
0.2697173747408716
 10
5.132340392577383
 20
5.623932325020556
 42
0.0491268497694631
 10
4.859481326369851
 20
5.484756885307116
 42
-0.2697173747408716
 10
5.105933420103972
 20
5.343224396837658
 42
-0.2023114368293305
 10
5.085769199474404
 20
4.921641580838933
 42
0.0491268497694432
 10
4.950815113114948
 20
4.786874871791185
 42
0.2023114368293305
 10
4.888345156569577
 20
5.204290936489504
 42
0.2697173747408716
 10
4.619016951959324
 20
5.295023499551023
 42
0.0491268497694499
 10
4.420188180400494
 20
5.062023515363273
 42
-0.2697173747408716
 10
4.70204236402467
 20
5.025577679224691
 42
-0.2023114368293305
 10
4.84474581234854
 20
4.628369431103597
 42
0.0491268497695157
 10
4.771637480919166
 20
4.452216533970643
 42
0.2023114368293305
 10
4.554184554306949
 20
4.813952475296348
 42
0.2697173747408716
 10
4.270635889879912
 20
4.794710991468321
 42
0.049126849769483
 10
4.176107291052281
 20
4.503358598248627
 42
-0.2697173747408716
 10
4.450453820124258
 20
4.577547962610688
 42
-0.2023114368293305
 10
4.734299631004168
 20
4.265185637441811
 42
0.0491268497694594
 10
4.73416713523641
 20
4.074464233982284
 42
0.2023114368293305
 10
4.394836475418364
 20
4.325449034013013
 42
0.2697173747408716
 10
4.140235064958424
 20
4.199162844783566
 42
0.049126849769479
 10
4.164397761129706
 20
3.893813803283786
 42
-0.2697173747408716
 10
4.389469863555766
 20
4.067343709950636
 42
-0.2023114368293305
 10
4.771245085353888
 20
3.887381640169628
 42
0.0491268497694938
 10
4.844108596527347
 20
3.711127335166191
 42
0.2023114368293305
 10
4.434560220420684
 20
3.813150833280138
 42
0.2697173747408716
 10
4.247666820702845
 20
3.599045866172449
 42
0.0491268497694723
 10
4.386842260416321
 20
3.326186799964832
 42
-0.2697173747408716
 10
4.528374748885788
 20
3.572638893698948
 42
-0.2023114368293305
 10
4.949957564884492
 20
3.552474673069399
 42
0.049126849769519
 10
5.084724273932258
 20
3.417520586709917
 42
0.2023114368293305
 10
4.667308209233937
 20
3.355050630164551
 42
0.2697173747408716
 10
4.576575646172408
 20
3.085722425554301
 42
0.0491268497694734
 10
4.809575630360163
 20
2.886893653995473
 42
-0.2697173747408716
 10
4.846021466498746
 20
3.168747837619643
 42
-0.2023114368293305
 10
5.243229714619957
 20
3.311451285943456
 42
0.0491268497694517
 10
5.419382611752786
 20
3.238342954514138
 42
0.2023114368293305
 10
5.057646670427081
 20
3.020890027901923
 42
0.2697173747408716
 10
5.076888154255236
 20
2.737341363474832
 42
0.0491268497694595
 10
5.368240547474818
 20
2.642812764647255
 42
-0.2697173747408716
 10
5.294051183112755
 20
2.917159293719232
 42
-0.2023114368293305
 10
5.60641350828174
 20
3.201005104599133
 42
0.0491268497694707
 10
5.797134911741151
 20
3.200872608831386
 42
0.2023114368293305
 10
5.546150111710424
 20
2.861541949013343
 42
0.2697173747408716
 10
5.67243630093982
 20
2.606940538553399
 42
0.0491268497694667
 10
5.977785342439644
 20
2.631103234724677
 42
-0.2697173747408716
 10
5.804255435772803
 20
2.856175337150733
 42
-0.2023114368293305
 10
5.984217505553921
 20
3.237950558948897
 42
0.0491268497695319
 10
6.160471810557261
 20
3.310814070122321
 42
0.2023114368293305
 10
6.058448312443302
 20
2.901265694015654
 42
0.2697173747408716
 10
6.272553279551054
 20
2.714372294297844
 42
0.049126849769466
 10
6.545412345758599
 20
2.853547734011299
 42
-0.2697173747408716
 10
6.298960252024477
 20
2.995080222480753
 42
-0.2023114368293305
 10
6.319124472654022
 20
3.416663038479451
 42
0.0491268497694889
 10
6.454078559013518
 20
3.551429747527232
 42
0.2023114368293305
 10
6.516548515558887
 20
3.13401368282891
 42
0.2697173747408716
 10
6.785876720169056
 20
3.043281119767303
 42
0.0491268497694796
 10
6.984705491727956
 20
3.276281103955129
 42
-0.2697173747408716
 10
6.702851308103794
 20
3.312726940093712
 42
-0.2023114368293305
 10
6.560147859779937
 20
3.709935188214845
 42
0.0491268497695078
 10
6.633256191209298
 20
3.886088085347759
 42
0.2023114368293305
 10
6.850709117821517
 20
3.524352144022047
 42
0.2697173747408716
 10
7.134257782248588
 20
3.543593627850163
 42
0.0491268497694644
 10
7.228786381076176
 20
3.834946021069785
 42
-0.2697173747408716
 10
6.954439852004199
 20
3.760756656707728
 42
-0.2023114368293305
 10
6.670594041124302
 20
4.073118981876668
 42
0.0491268497694673
 10
6.670726536892053
 20
4.263840385336126
 42
0.2023114368293305
 10
7.010057196710093
 20
4.012855585305397
 42
0.2697173747408716
 10
7.26465860717004
 20
4.139141774534945
 42
0.0491268497694348
 10
7.240495910998767
 20
4.444490816034617
 42
-0.2697173747408716
 10
7.015423808572712
 20
4.270960909367774
 42
-0.2023114368293305
 10
6.633648586774484
 20
4.450922979149094
 42
0.0491268497694701
 10
6.560785075601123
 20
4.627177284152231
 42
0.2023114368293305
 10
6.97033345170778
 20
4.525153786038276
 42
0.2697173747408716
 10
7.157226851425612
 20
4.73925875314598
 42
0.0491268497694666
 10
7.018051411712142
 20
5.012117819353572
 42
-0.2697173747408716
 10
6.876518923242691
 20
4.765665725619451
 42
-0.2023114368293305
 10
6.454936107243995
 20
4.785829946248991
 42
0.0491268497694966
 10
6.320169398196205
 20
4.920784032608493
 42
0.2023114368293305
 10
6.737585462894536
 20
4.983253989153861
 42
0.2697173747408716
 10
6.828318025956092
 20
5.252582193764076
 42
0.0491268497694757
 10
6.595318041768293
 20
5.451410965322944
 42
-0.2697173747408716
 10
6.558872205629711
 20
5.169556781698769
 42
-0.2023114368293305
 10
6.161663957508665
 20
5.026853333374872
 42
0.049126849769513
 10
5.985511060375684
 20
5.099961664804271
 42
0.2023114368293305
 10
6.347247001701397
 20
5.317414591416484
 42
0.2697173747408716
 10
6.328005517873315
 20
5.600963255843543
 42
0.0491268497694801
 10
6.03665312465366
 20
5.695491854671157
 42
-0.2697173747408716
 10
6.110842489015716
 20
5.421145325599178
 42
-0.2023114368293305
 10
5.798480163846782
 20
5.137299514719274
 42
0.0491268497694365
 10
5.607758760387304
 20
5.137432010487026
 42
0.2023114368293305
 10
5.858743560418033
 20
5.47676267030507
 42
0.2697173747408716
 10
5.732457371188638
 20
5.731364080765015
 42
0.0491268497694759
  0
CIRCLE
  5
69
330
1F
100
AcDbEntity
  8
pocketinterior
100
AcDbCircle
 10
5.702446836064232
 20
4.169152309659207
 30
0.0
 40
1.035398458581682
  0
CIRCLE
  5
6A
330
1F
100
AcDbEntity
  8
mill external CW
100
AcDbCircle
 10
5.702446836064232
 20
4.169152309659207
 30
0.0
 40
1.5
  0
CIRCLE
  5
72
330
1F
100
AcDbEntity
  8
drill 1 16 inch
100
AcDbCircle
 10
5.702446836064232
 20
2.736235403859679
 30
0.0
 40
0.02975
  0
CIRCLE
  5
73
330
1F
100
AcDbEntity
  8
construction lines
100
AcDbCircle
 10
5.702446836064232
 20
4.169152309659207
 30
0.0
 40
0.375
  0
CIRCLE
  5
75
330
1F
100
AcDbEntity
  8
pocketinterior
100
AcDbCircle
 10
5.702446836064232
 20
4.169152309659207
 30
0.0
 40
0.6111644389099071
  0
CIRCLE
  5
7C
330
1F
100
AcDbEntity
  8
drill 1 16 inch
100
AcDbCircle
 10
4.269529930264702
 20
4.169152309659207
 30
0.0
 40
0.02975
  0
CIRCLE
  5
7D
330
1F
100
AcDbEntity
  8
drill 3 16 inch
100
AcDbCircle
 10
5.702446836064232
 20
4.169152309659207
 30
0.0
 40
0.09375
  0
CIRCLE
  5
7E
330
1F
100
AcDbEntity
  8
drill 1 16 inch
100
AcDbCircle
 10
5.536718684223636
 20
4.00342415781861
 30
0.0
 40
0.02975
  0
CIRCLE
  5
7F
330
1F
100
AcDbEntity
  8
drill 1 16 inch
100
AcDbCircle
 10
5.868174987904828
 20
4.00342415781861
 30
0.0
 40
0.02975
  0
CIRCLE
  5
80
330
1F
100
AcDbEntity
  8
drill 1 16 inch
100
AcDbCircle
 10
5.536718684223636
 20
4.334880461499802
 30
0.0
 40
0.02975
  0
CIRCLE
  5
81
330
1F
100
AcDbEntity
  8
drill 1 16 inch
100
AcDbCircle
 10
5.868174987904828
 20
4.334880461499802
 30
0.0
 40
0.02975
  0
CIRCLE
  5
8C
330
1F
100
AcDbEntity
  8
drill 1 16 inch
100
AcDbCircle
 10
5.702446836064232
 20
5.602069215458742
 30
0.0
 40
0.02975
  0
CIRCLE
  5
92
330
1F
100
AcDbEntity
  8
drill 1 16 inch
100
AcDbCircle
 10
7.135363741863762
 20
4.169152309659207
 30
0.0
 40
0.02975
  0
LWPOLYLINE
  5
B5
330
1F
100
AcDbEntity
  8
mill rotor fins
100
AcDbPolyline
 90
       10
 70
     1
 43
0.0
 10
5.679265576184802
 20
2.694243869232997
 42
-0.160714332888533
 10
5.633516254348272
 20
2.74488842689374
 42
-0.0248021217361856
 10
5.630713545587275
 20
2.753941422174107
 42
-0.055173236826328
 10
5.624283124358291
 20
2.812038851671701
 42
-0.111290885866393
 10
5.666004740927504
 20
2.945738311880199
 42
-0.0623795606028282
 10
5.787762097557617
 20
3.110259365443991
 42
0.0629805987331203
 10
5.722333694747908
 20
2.904334173421691
 42
0.0583823229840635
 10
5.723525489796593
 20
2.80666013416972
 42
0.178193324582406
 10
5.78888552408123
 20
2.708922717918121
 42
-0.5937921465242204
 10
5.772087588767043
 20
2.67810926614617
 42
-0.1143767734549867
  0
LWPOLYLINE
  5
B6
330
1F
100
AcDbEntity
  8
mill rotor fins
100
AcDbPolyline
 90
       10
 70
     1
 43
0.0
 10
5.967451360180341
 20
2.718061381892078
 42
-0.160714332888533
 10
5.912700835672243
 20
2.758807568649159
 42
-0.0248021217361856
 10
5.908185828409743
 20
2.767139831809003
 42
-0.055173236826328
 10
5.890544719692568
 20
2.822866422541244
 42
-0.111290885866393
 10
5.90538119635282
 20
2.962136368723119
 42
-0.0623795606028282
 10
5.99270255419825
 20
3.147249878287719
 42
0.0629805987331203
 10
5.968705351825057
 20
2.932517032914891
 42
0.0583823229840635
 10
5.988929506636347
 20
2.836952280618856
 42
0.178193324582406
 10
6.072101290198919
 20
2.753843971550219
 42
-0.5937921465242204
 10
6.061637528730217
 20
2.720345477004223
 42
-0.1143767734549867
  0
LWPOLYLINE
  5
B7
330
1F
100
AcDbEntity
  8
mill rotor fins
100
AcDbPolyline
 90
       10
 70
     1
 43
0.0
 10
6.245453168930345
 20
2.797643505124083
 42
-0.160714332888533
 10
6.183805473703078
 20
2.826925467871152
 42
-0.0248021217361856
 10
6.177751677136128
 20
2.834216794710027
 42
-0.055173236826328
 10
6.149577818845515
 20
2.88543100504691
 42
-0.111290885866393
 10
6.136958998119146
 20
3.024919371273876
 42
-0.0623795606028282
 10
6.186488646368273
 20
3.223511528479567
 42
0.0629805987331203
 10
6.204844843461013
 20
3.008223092580323
 42
0.0583823229840635
 10
6.243324155107347
 20
2.918440127077629
 42
0.178193324582406
 10
6.341111442948817
 20
2.853154730901787
 42
-0.5937921465242204
 10
6.337383971810698
 20
2.818258521940976
 42
-0.1143767734549867
  0
LWPOLYLINE
  5
B8
330
1F
100
AcDbEntity
  8
mill rotor fins
100
AcDbPolyline
 90
       10
 70
     1
 43
0.0
 10
6.502587548829765
 20
2.929931942563372
 42
-0.160714332888533
 10
6.436411769238487
 20
2.946624391893575
 42
-0.0248021217361856
 10
6.429051827374145
 20
2.952594580810085
 42
-0.055173236826328
 10
6.391427925084123
 20
2.997328277369622
 42
-0.111290885866393
 10
6.35183874117493
 20
3.131674603953554
 42
-0.0623795606028282
 10
6.361673283222088
 20
3.33611362357069
 42
0.0629805987331203
 10
6.42167746142076
 20
3.12854301100149
 42
0.0583823229840635
 10
6.476933191535017
 20
3.04799214130554
 42
0.178193324582406
 10
6.58557807302338
 20
3.003038539185055
 42
-0.5937921465242204
 10
6.58873013684129
 20
2.968085657549776
 42
-0.1143767734549867
  0
LWPOLYLINE
  5
B9
330
1F
100
AcDbEntity
  8
mill rotor fins
100
AcDbPolyline
 90
       10
 70
     1
 43
0.0
 10
6.728972969861688
 20
3.109842923747367
 42
-0.160714332888533
 10
6.660812204004287
 20
3.113304378194175
 42
-0.0248021217361856
 10
6.652428955280898
 20
3.117723998176381
 42
-0.055173236826328
 10
6.606800874456742
 20
3.154258090086735
 42
-0.111290885866393
 10
6.541762717500486
 20
3.278299523039301
 42
-0.0623795606028282
 10
6.511524217410077
 20
3.480728928194716
 42
0.0629805987331203
 10
6.610870449797236
 20
3.288852961189656
 42
0.0583823229840635
 10
6.680779151658896
 20
3.220629712049415
 42
0.178193324582406
 10
6.796106464927306
 20
3.197735445703509
 42
-0.5937921465242204
 10
6.806016931656422
 20
3.164069111033202
 42
-0.1143767734549867
  0
LWPOLYLINE
  5
BA
330
1F
100
AcDbEntity
  8
mill rotor fins
100
AcDbPolyline
 90
       10
 70
     1
 43
0.0
 10
6.915909567254262
 20
3.330462570564407
 42
-0.160714332888533
 10
6.84838319513764
 20
3.320560008374636
 42
-0.0248021217361856
 10
6.839298803102263
 20
3.323259215905172
 42
-0.055173236826328
 10
6.787420005301524
 20
3.350189718502784
 42
-0.111290885866393
 10
6.699432255196215
 20
3.459159415118853
 42
-0.0623795606028282
 10
6.630282761568766
 20
3.651799957296143
 42
0.0629805987331203
 10
6.765153228147784
 20
3.482992321661944
 42
0.0583823229840635
 10
6.847028349549554
 20
3.429718474281834
 42
0.178193324582406
 10
6.964606130625409
 20
3.429763357526928
 42
-0.5937921465242204
 10
6.980894146587186
 20
3.398677348182676
 42
-0.1143767734549867
  0
LWPOLYLINE
  5
BB
330
1F
100
AcDbEntity
  8
mill rotor fins
100
AcDbPolyline
 90
       10
 70
     1
 43
0.0
 10
7.056213472404942
 20
3.583312593712233
 42
-0.160714332888533
 10
6.991916494640316
 20
3.560426564797416
 42
-0.0248021217361856
 10
6.982480067384285
 20
3.561301630844617
 42
-0.055173236826328
 10
6.92634422571248
 20
3.57759362001746
 42
-0.111290885866393
 10
6.818788202350567
 20
3.667303935966987
 42
-0.0623795606028282
 10
6.713385091446699
 20
3.842752547164339
 42
0.0629805987331203
 10
6.878596795823173
 20
3.703500425670012
 42
0.0583823229840635
 10
6.96929192176568
 20
3.667223264128533
 42
0.178193324582406
 10
7.084601722460613
 20
3.690205572126687
 42
-0.5937921465242204
 10
7.106641348336062
 20
3.662894506014355
 42
-0.1143767734549867
  0
LWPOLYLINE
  5
BC
330
1F
100
AcDbEntity
  8
mill rotor fins
100
AcDbPolyline
 90
       10
 70
     1
 43
0.0
 10
7.144492884922126
 20
3.858676108601206
 42
-0.160714332888533
 10
7.085896198306828
 20
3.823686110217906
 42
-0.0248021217361856
 10
7.076470372437584
 20
3.82270340648432
 42
-0.055173236826328
 10
7.018234755808818
 20
3.827730790225135
 42
-0.111290885866393
 10
6.895243776849985
 20
3.894734208376305
 42
-0.0623795606028282
 10
6.75763763111099
 20
4.04624849685812
 42
0.0629805987331203
 10
6.946841580137522
 20
3.9419032704392
 42
0.0583823229840635
 10
7.042871347793209
 20
3.924016905709923
 42
0.178193324582406
 10
7.151481877132995
 20
3.969053441253397
 42
-0.5937921465242204
 10
7.17842614245969
 20
3.946566867327459
 42
-0.1143767734549867
  0
LWPOLYLINE
  5
BD
330
1F
100
AcDbEntity
  8
mill rotor fins
100
AcDbPolyline
 90
       10
 70
     1
 43
0.0
 10
7.177355276490443
 20
4.145971049779777
 42
-0.160714332888533
 10
7.126710718829699
 20
4.100221727943247
 42
-0.0248021217361856
 10
7.117657723549332
 20
4.09741901918225
 42
-0.055173236826328
 10
7.059560294051739
 20
4.090988597953266
 42
-0.111290885866393
 10
6.92586083384324
 20
4.132710214522479
 42
-0.0623795606028282
 10
6.761339780279449
 20
4.254467571152592
 42
0.0629805987331203
 10
6.967264972301748
 20
4.189039168342883
 42
0.0583823229840635
 10
7.06493901155372
 20
4.190230963391567
 42
0.178193324582406
 10
7.162676427805319
 20
4.255590997676205
 42
-0.5937921465242204
 10
7.193489879577271
 20
4.238793062362018
 42
-0.1143767734549867
  0
LWPOLYLINE
  5
BE
330
1F
100
AcDbEntity
  8
mill rotor fins
100
AcDbPolyline
 90
       10
 70
     1
 43
0.0
 10
7.153537763831359
 20
4.434156833775315
 42
-0.160714332888533
 10
7.112791577074278
 20
4.379406309267217
 42
-0.0248021217361856
 10
7.104459313914435
 20
4.374891302004717
 42
-0.055173236826328
 10
7.048732723182193
 20
4.357250193287542
 42
-0.111290885866393
 10
6.909462777000318
 20
4.372086669947795
 42
-0.0623795606028282
 10
6.724349267435719
 20
4.459408027793224
 42
0.0629805987331203
 10
6.939082112808547
 20
4.435410825420031
 42
0.0583823229840635
 10
7.034646865104582
 20
4.455634980231321
 42
0.178193324582406
 10
7.117755174173218
 20
4.538806763793893
 42
-0.5937921465242204
 10
7.151253668719215
 20
4.528343002325191
 42
-0.1143767734549867
  0
LWPOLYLINE
  5
BF
330
1F
100
AcDbEntity
  8
mill rotor fins
100
AcDbPolyline
 90
       10
 70
     1
 43
0.0
 10
7.073955640599357
 20
4.71215864252532
 42
-0.160714332888533
 10
7.044673677852287
 20
4.650510947298053
 42
-0.0248021217361856
 10
7.037382351013413
 20
4.644457150731103
 42
-0.055173236826328
 10
6.986168140676531
 20
4.61628329244049
 42
-0.111290885866393
 10
6.846679774449564
 20
4.603664471714122
 42
-0.0623795606028282
 10
6.648087617243872
 20
4.653194119963248
 42
0.0629805987331203
 10
6.863376053143117
 20
4.671550317055988
 42
0.0583823229840635
 10
6.953159018645811
 20
4.710029628702322
 42
0.178193324582406
 10
7.018444414821654
 20
4.807816916543792
 42
-0.5937921465242204
 10
7.053340623782464
 20
4.804089445405673
 42
-0.1143767734549867
  0
LWPOLYLINE
  5
C0
330
1F
100
AcDbEntity
  8
mill rotor fins
100
AcDbPolyline
 90
       10
 70
     1
 43
0.0
 10
6.941667203160068
 20
4.969293022424739
 42
-0.160714332888533
 10
6.924974753829865
 20
4.903117242833461
 42
-0.0248021217361856
 10
6.919004564913355
 20
4.89575730096912
 42
-0.055173236826328
 10
6.874270868353818
 20
4.858133398679096
 42
-0.111290885866393
 10
6.739924541769886
 20
4.818544214769905
 42
-0.0623795606028282
 10
6.53548552215275
 20
4.828378756817061
 42
0.0629805987331203
 10
6.74305613472195
 20
4.888382935015733
 42
0.0583823229840635
 10
6.823607004417901
 20
4.94363866512999
 42
0.178193324582406
 10
6.868560606538386
 20
5.052283546618353
 42
-0.5937921465242204
 10
6.903513488173664
 20
5.055435610436264
 42
-0.1143767734549867
  0
LWPOLYLINE
  5
C1
330
1F
100
AcDbEntity
  8
mill rotor fins
100
AcDbPolyline
 90
       10
 70
     1
 43
0.0
 10
6.761756221976072
 20
5.195678443456662
 42
-0.160714332888533
 10
6.758294767529264
 20
5.127517677599261
 42
-0.0248021217361856
 10
6.753875147547058
 20
5.119134428875872
 42
-0.055173236826328
 10
6.717341055636704
 20
5.073506348051717
 42
-0.111290885866393
 10
6.593299622684138
 20
5.008468191095461
 42
-0.0623795606028282
 10
6.390870217528723
 20
4.978229691005051
 42
0.0629805987331203
 10
6.582746184533784
 20
5.077575923392211
 42
0.0583823229840635
 10
6.650969433674024
 20
5.14748462525387
 42
0.178193324582406
 10
6.67386370001993
 20
5.262811938522281
 42
-0.5937921465242204
 10
6.707530034690237
 20
5.272722405251396
 42
-0.1143767734549867
  0
LWPOLYLINE
  5
C2
330
1F
100
AcDbEntity
  8
mill rotor fins
100
AcDbPolyline
 90
       10
 70
     1
 43
0.0
 10
6.541136575159033
 20
5.382615040849237
 42
-0.160714332888533
 10
6.551039137348803
 20
5.315088668732615
 42
-0.0248021217361856
 10
6.548339929818267
 20
5.306004276697238
 42
-0.055173236826328
 10
6.521409427220655
 20
5.254125478896499
 42
-0.111290885866393
 10
6.412439730604585
 20
5.16613772879119
 42
-0.0623795606028282
 10
6.219799188427296
 20
5.096988235163742
 42
0.0629805987331203
 10
6.388606824061495
 20
5.23185870174276
 42
0.0583823229840635
 10
6.441880671441605
 20
5.313733823144529
 42
0.178193324582406
 10
6.441835788196511
 20
5.431311604220383
 42
-0.5937921465242204
 10
6.472921797540763
 20
5.447599620182161
 42
-0.1143767734549867
  0
LWPOLYLINE
  5
C3
330
1F
100
AcDbEntity
  8
mill rotor fins
100
AcDbPolyline
 90
       10
 70
     1
 43
0.0
 10
6.288286552011205
 20
5.522918945999917
 42
-0.160714332888533
 10
6.311172580926022
 20
5.45862196823529
 42
-0.0248021217361856
 10
6.310297514878822
 20
5.44918554097926
 42
-0.055173236826328
 10
6.294005525705978
 20
5.393049699307455
 42
-0.111290885866393
 10
6.204295209756452
 20
5.285493675945541
 42
-0.0623795606028282
 10
6.028846598559099
 20
5.180090565041673
 42
0.0629805987331203
 10
6.168098720053427
 20
5.345302269418148
 42
0.0583823229840635
 10
6.204375881594906
 20
5.435997395360654
 42
0.178193324582406
 10
6.181393573596752
 20
5.551307196055589
 42
-0.5937921465242204
 10
6.208704639709084
 20
5.573346821931037
 42
-0.1143767734549867
  0
LWPOLYLINE
  5
C4
330
1F
100
AcDbEntity
  8
mill rotor fins
100
AcDbPolyline
 90
       10
 70
     1
 43
0.0
 10
6.012923037122231
 20
5.6111983585171
 42
-0.160714332888533
 10
6.047913035505532
 20
5.552601671901802
 42
-0.0248021217361856
 10
6.048895739239117
 20
5.543175846032559
 42
-0.055173236826328
 10
6.043868355498302
 20
5.484940229403793
 42
-0.111290885866393
 10
5.976864937347133
 20
5.361949250444961
 42
-0.0623795606028282
 10
5.825350648865319
 20
5.224343104705964
 42
0.0629805987331203
 10
5.929695875284238
 20
5.413547053732497
 42
0.0583823229840635
 10
5.947582240013513
 20
5.509576821388183
 42
0.178193324582406
 10
5.90254570447004
 20
5.61818735072797
 42
-0.5937921465242204
 10
5.925032278395979
 20
5.645131616054664
 42
-0.1143767734549867
  0
LWPOLYLINE
  5
C5
330
1F
100
AcDbEntity
  8
mill rotor fins
100
AcDbPolyline
 90
       10
 70
     1
 43
0.0
 10
5.725628095943659
 20
5.644060750085415
 42
-0.160714332888533
 10
5.77137741778019
 20
5.593416192424673
 42
-0.0248021217361856
 10
5.774180126541186
 20
5.584363197144305
 42
-0.055173236826328
 10
5.78061054777017
 20
5.526265767646712
 42
-0.111290885866393
 10
5.738888931200959
 20
5.392566307438213
 42
-0.0623795606028282
 10
5.617131574570845
 20
5.228045253874421
 42
0.0629805987331203
 10
5.682559977380554
 20
5.433970445896721
 42
0.0583823229840635
 10
5.681368182331869
 20
5.531644485148692
 42
0.178193324582406
 10
5.616008148047232
 20
5.629381901400291
 42
-0.5937921465242204
 10
5.632806083361419
 20
5.660195353172243
 42
-0.1143767734549867
  0
LWPOLYLINE
  5
C6
330
1F
100
AcDbEntity
  8
mill rotor fins
100
AcDbPolyline
 90
       10
 70
     1
 43
0.0
 10
5.437442311948121
 20
5.620243237426335
 42
-0.160714332888533
 10
5.492192836456219
 20
5.579497050669255
 42
-0.0248021217361856
 10
5.496707843718719
 20
5.571164787509411
 42
-0.055173236826328
 10
5.514348952435895
 20
5.515438196777169
 42
-0.111290885866393
 10
5.499512475775642
 20
5.376168250595295
 42
-0.0623795606028282
 10
5.412191117930213
 20
5.191054741030695
 42
0.0629805987331203
 10
5.436188320303405
 20
5.405787586403523
 42
0.0583823229840635
 10
5.415964165492114
 20
5.501352338699557
 42
0.178193324582406
 10
5.332792381929543
 20
5.584460647768194
 42
-0.5937921465242204
 10
5.343256143398245
 20
5.61795914231419
 42
-0.1143767734549867
  0
LWPOLYLINE
  5
C7
330
1F
100
AcDbEntity
  8
mill rotor fins
100
AcDbPolyline
 90
       10
 70
     1
 43
0.0
 10
5.159440503198117
 20
5.540661114194331
 42
-0.160714332888533
 10
5.221088198425384
 20
5.511379151447261
 42
-0.0248021217361856
 10
5.227141994992336
 20
5.504087824608387
 42
-0.055173236826328
 10
5.255315853282947
 20
5.452873614271505
 42
-0.111290885866393
 10
5.267934674009316
 20
5.313385248044538
 42
-0.0623795606028282
 10
5.21840502576019
 20
5.114793090838846
 42
0.0629805987331203
 10
5.200048828667449
 20
5.330081526738091
 42
0.0583823229840635
 10
5.161569517021115
 20
5.419864492240784
 42
0.178193324582406
 10
5.063782229179645
 20
5.485149888416628
 42
-0.5937921465242204
 10
5.067509700317764
 20
5.520046097377437
 42
-0.1143767734549867
  0
LWPOLYLINE
  5
C8
330
1F
100
AcDbEntity
  8
mill rotor fins
100
AcDbPolyline
 90
       10
 70
     1
 43
0.0
 10
4.902306123298696
 20
5.408372676755039
 42
-0.160714332888533
 10
4.968481902889974
 20
5.391680227424838
 42
-0.0248021217361856
 10
4.975841844754317
 20
5.385710038508327
 42
-0.055173236826328
 10
5.013465747044339
 20
5.34097634194879
 42
-0.111290885866393
 10
5.053054930953532
 20
5.206630015364858
 42
-0.0623795606028282
 10
5.043220388906375
 20
5.002190995747723
 42
0.0629805987331203
 10
4.983216210707702
 20
5.209761608316922
 42
0.0583823229840635
 10
4.927960480593445
 20
5.290312478012873
 42
0.178193324582406
 10
4.819315599105082
 20
5.335266080133357
 42
-0.5937921465242204
 10
4.816163535287172
 20
5.370218961768635
 42
-0.1143767734549867
  0
LWPOLYLINE
  5
C9
330
1F
100
AcDbEntity
  8
mill rotor fins
100
AcDbPolyline
 90
       10
 70
     1
 43
0.0
 10
4.675920702266774
 20
5.228461695571044
 42
-0.160714332888533
 10
4.744081468124175
 20
5.225000241124236
 42
-0.0248021217361856
 10
4.752464716847564
 20
5.220580621142031
 42
-0.055173236826328
 10
4.798092797671721
 20
5.184046529231676
 42
-0.111290885866393
 10
4.863130954627976
 20
5.060005096279111
 42
-0.0623795606028282
 10
4.893369454718387
 20
4.857575691123695
 42
0.0629805987331203
 10
4.794023222331226
 20
5.049451658128756
 42
0.0583823229840635
 10
4.724114520469567
 20
5.117674907268996
 42
0.178193324582406
 10
4.608787207201157
 20
5.140569173614902
 42
-0.5937921465242204
 10
4.59887674047204
 20
5.174235508285208
 42
-0.1143767734549867
  0
LWPOLYLINE
  5
CA
330
1F
100
AcDbEntity
  8
mill rotor fins
100
AcDbPolyline
 90
       10
 70
     1
 43
0.0
 10
4.488984104874201
 20
5.007842048754005
 42
-0.160714332888533
 10
4.556510476990823
 20
5.017744610943776
 42
-0.0248021217361856
 10
4.565594869026199
 20
5.01504540341324
 42
-0.055173236826328
 10
4.617473666826938
 20
4.988114900815628
 42
-0.111290885866393
 10
4.705461416932247
 20
4.879145204199558
 42
-0.0623795606028282
 10
4.774610910559696
 20
4.68650466202227
 42
0.0629805987331203
 10
4.639740443980677
 20
4.855312297656468
 42
0.0583823229840635
 10
4.557865322578908
 20
4.908586145036577
 42
0.178193324582406
 10
4.440287541503053
 20
4.908541261791484
 42
-0.5937921465242204
 10
4.423999525541278
 20
4.939627271135735
 42
-0.1143767734549867
  0
LWPOLYLINE
  5
CB
330
1F
100
AcDbEntity
  8
mill rotor fins
100
AcDbPolyline
 90
       10
 70
     1
 43
0.0
 10
4.348680199723521
 20
4.754992025606176
 42
-0.160714332888533
 10
4.412977177488148
 20
4.777878054520994
 42
-0.0248021217361856
 10
4.422413604744178
 20
4.777002988473793
 42
-0.055173236826328
 10
4.478549446415982
 20
4.760710999300949
 42
-0.111290885866393
 10
4.586105469777895
 20
4.671000683351422
 42
-0.0623795606028282
 10
4.691508580681764
 20
4.495552072154071
 42
0.0629805987331203
 10
4.526296876305289
 20
4.634804193648398
 42
0.0583823229840635
 10
4.435601750362783
 20
4.671081355189877
 42
0.178193324582406
 10
4.32029194966785
 20
4.648099047191721
 42
-0.5937921465242204
 10
4.2982523237924
 20
4.675410113304055
 42
-0.1143767734549867
  0
LWPOLYLINE
  5
CC
330
1F
100
AcDbEntity
  8
mill rotor fins
100
AcDbPolyline
 90
       10
 70
     1
 43
0.0
 10
4.260400787206338
 20
4.479628510717205
 42
-0.160714332888533
 10
4.318997473821635
 20
4.514618509100505
 42
-0.0248021217361856
 10
4.328423299690879
 20
4.51560121283409
 42
-0.055173236826328
 10
4.386658916319644
 20
4.510573829093276
 42
-0.111290885866393
 10
4.509649895278476
 20
4.443570410942107
 42
-0.0623795606028282
 10
4.647256041017474
 20
4.292056122460292
 42
0.0629805987331203
 10
4.45805209199094
 20
4.39640134887921
 42
0.0583823229840635
 10
4.362022324335255
 20
4.414287713608487
 42
0.178193324582406
 10
4.253411794995468
 20
4.369251178065013
 42
-0.5937921465242204
 10
4.226467529668774
 20
4.391737751990952
 42
-0.1143767734549867
  0
LWPOLYLINE
  5
CD
330
1F
100
AcDbEntity
  8
mill rotor fins
100
AcDbPolyline
 90
       10
 70
     1
 43
0.0
 10
4.227538395638022
 20
4.192333569538633
 42
-0.160714332888533
 10
4.278182953298765
 20
4.238082891375164
 42
-0.0248021217361856
 10
4.287235948579132
 20
4.24088560013616
 42
-0.055173236826328
 10
4.345333378076725
 20
4.247316021365144
 42
-0.111290885866393
 10
4.479032838285224
 20
4.205594404795932
 42
-0.0623795606028282
 10
4.643553891849016
 20
4.083837048165819
 42
0.0629805987331203
 10
4.437628699826716
 20
4.149265450975527
 42
0.0583823229840635
 10
4.339954660574745
 20
4.148073655926843
 42
0.178193324582406
 10
4.242217244323146
 20
4.082713621642206
 42
-0.5937921465242204
 10
4.211403792551195
 20
4.099511556956392
 42
-0.1143767734549867
  0
LWPOLYLINE
  5
CE
330
1F
100
AcDbEntity
  8
mill rotor fins
100
AcDbPolyline
 90
       10
 70
     1
 43
0.0
 10
4.251355908297104
 20
3.904147785543095
 42
-0.160714332888533
 10
4.292102095054185
 20
3.958898310051194
 42
-0.0248021217361856
 10
4.300434358214029
 20
3.963413317313693
 42
-0.055173236826328
 10
4.356160948946271
 20
3.981054426030868
 42
-0.111290885866393
 10
4.495430895128145
 20
3.966217949370615
 42
-0.0623795606028282
 10
4.680544404692745
 20
3.878896591525188
 42
0.0629805987331203
 10
4.465811559319917
 20
3.902893793898378
 42
0.0583823229840635
 10
4.370246807023882
 20
3.882669639087088
 42
0.178193324582406
 10
4.287138497955246
 20
3.799497855524516
 42
-0.5937921465242204
 10
4.25364000340925
 20
3.809961616993218
 42
-0.1143767734549867
  0
LWPOLYLINE
  5
CF
330
1F
100
AcDbEntity
  8
mill rotor fins
100
AcDbPolyline
 90
       10
 70
     1
 43
0.0
 10
4.330938031529109
 20
3.626145976793089
 42
-0.160714332888533
 10
4.360219994276179
 20
3.687793672020355
 42
-0.0248021217361856
 10
4.367511321115054
 20
3.693847468587307
 42
-0.055173236826328
 10
4.418725531451936
 20
3.722021326877919
 42
-0.111290885866393
 10
4.558213897678902
 20
3.734640147604288
 42
-0.0623795606028282
 10
4.756806054884594
 20
3.685110499355162
 42
0.0629805987331203
 10
4.541517618985349
 20
3.666754302262422
 42
0.0583823229840635
 10
4.451734653482655
 20
3.628274990616087
 42
0.178193324582406
 10
4.386449257306813
 20
3.530487702774617
 42
-0.5937921465242204
 10
4.351553048346002
 20
3.534215173912737
 42
-0.1143767734549867
  0
LWPOLYLINE
  5
D0
330
1F
100
AcDbEntity
  8
mill rotor fins
100
AcDbPolyline
 90
       10
 70
     1
 43
0.0
 10
4.4632264689684
 20
3.369011596893669
 42
-0.160714332888533
 10
4.479918918298601
 20
3.435187376484947
 42
-0.0248021217361856
 10
4.485889107215112
 20
3.442547318349289
 42
-0.055173236826328
 10
4.530622803774649
 20
3.480171220639312
 42
-0.111290885866393
 10
4.664969130358581
 20
3.519760404548505
 42
-0.0623795606028282
 10
4.869408149975717
 20
3.509925862501348
 42
0.0629805987331203
 10
4.661837537406517
 20
3.449921684302675
 42
0.0583823229840635
 10
4.581286667710567
 20
3.394665954188419
 42
0.178193324582406
 10
4.536333065590083
 20
3.286021072700055
 42
-0.5937921465242204
 10
4.501380183954804
 20
3.282869008882144
 42
-0.1143767734549867
  0
LWPOLYLINE
  5
D1
330
1F
100
AcDbEntity
  8
mill rotor fins
100
AcDbPolyline
 90
       10
 70
     1
 43
0.0
 10
4.643137450152395
 20
3.142626175861747
 42
-0.160714332888533
 10
4.646598904599204
 20
3.210786941719148
 42
-0.0248021217361856
 10
4.651018524581409
 20
3.219170190442537
 42
-0.055173236826328
 10
4.687552616491764
 20
3.264798271266693
 42
-0.111290885866393
 10
4.811594049444329
 20
3.329836428222949
 42
-0.0623795606028282
 10
5.014023454599744
 20
3.360074928313359
 42
0.0629805987331203
 10
4.822147487594683
 20
3.260728695926199
 42
0.0583823229840635
 10
4.753924238454444
 20
3.19081999406454
 42
0.178193324582406
 10
4.731029972108538
 20
3.075492680796129
 42
-0.5937921465242204
 10
4.697363637438232
 20
3.065582214067013
 42
-0.1143767734549867
  0
LWPOLYLINE
  5
D2
330
1F
100
AcDbEntity
  8
mill rotor fins
100
AcDbPolyline
 90
       10
 70
     1
 43
0.0
 10
4.863757096969435
 20
2.955689578469174
 42
-0.160714332888533
 10
4.853854534779664
 20
3.023215950585796
 42
-0.0248021217361856
 10
4.8565537423102
 20
3.032300342621172
 42
-0.055173236826328
 10
4.883484244907813
 20
3.084179140421912
 42
-0.111290885866393
 10
4.992453941523881
 20
3.17216689052722
 42
-0.0623795606028282
 10
5.18509448370117
 20
3.241316384154671
 42
0.0629805987331203
 10
5.016286848066972
 20
3.106445917575651
 42
0.0583823229840635
 10
4.963013000686862
 20
3.024570796173882
 42
0.178193324582406
 10
4.963057883931957
 20
2.906993015098027
 42
-0.5937921465242204
 10
4.931971874587705
 20
2.890704999136251
 42
-0.1143767734549867
  0
LWPOLYLINE
  5
D3
330
1F
100
AcDbEntity
  8
mill rotor fins
100
AcDbPolyline
 90
       10
 70
     1
 43
0.0
 10
5.116607120117264
 20
2.815385673318494
 42
-0.160714332888533
 10
5.093721091202445
 20
2.87968265108312
 42
-0.0248021217361856
 10
5.094596157249646
 20
2.889119078339151
 42
-0.055173236826328
 10
5.11088814642249
 20
2.945254920010956
 42
-0.111290885866393
 10
5.200598462372017
 20
3.052810943372869
 42
-0.0623795606028282
 10
5.376047073569369
 20
3.158214054276738
 42
0.0629805987331203
 10
5.236794952075041
 20
2.993002349900263
 42
0.0583823229840635
 10
5.200517790533562
 20
2.902307223957756
 42
0.178193324582406
 10
5.223500098531718
 20
2.786997423262824
 42
-0.5937921465242204
 10
5.196189032419385
 20
2.764957797387374
 42
-0.1143767734549867
  0
LWPOLYLINE
  5
D4
330
1F
100
AcDbEntity
  8
mill rotor fins
100
AcDbPolyline
 90
       10
 70
     1
 43
0.0
 10
5.391970635006236
 20
2.727106260801312
 42
-0.160714332888533
 10
5.356980636622935
 20
2.785702947416609
 42
-0.0248021217361856
 10
5.35599793288935
 20
2.795128773285854
 42
-0.055173236826328
 10
5.361025316630165
 20
2.853364389914619
 42
-0.111290885866393
 10
5.428028734781334
 20
2.976355368873451
 42
-0.0623795606028282
 10
5.579543023263148
 20
3.113961514612449
 42
0.0629805987331203
 10
5.47519779684423
 20
2.924757565585915
 42
0.0583823229840635
 10
5.457311432114954
 20
2.82872779793023
 42
0.178193324582406
 10
5.502347967658428
 20
2.720117268590443
 42
-0.5937921465242204
 10
5.479861393732488
 20
2.693173003263749
 42
-0.1143767734549867
  0
ENDSEC
  0
SECTION
  2
OBJECTS
  0
DICTIONARY
  5
C
330
0
100
AcDbDictionary
281
     1
  3
ACAD_GROUP
350
D
  3
ACAD_LAYOUT
350
1A
  3
ACAD_MLINESTYLE
350
17
  3
ACAD_PLOTSETTINGS
350
19
  3
ACAD_PLOTSTYLENAME
350
E
  0
DICTIONARY
  5
D
102
{ACAD_REACTORS
330
C
102
}
330
C
100
AcDbDictionary
281
     1
  0
DICTIONARY
  5
1A
102
{ACAD_REACTORS
330
C
102
}
330
C
100
AcDbDictionary
281
     1
  3
Layout1
350
1E
  3
Layout2
350
26
  3
Model
350
22
  0
DICTIONARY
  5
17
102
{ACAD_REACTORS
330
C
102
}
330
C
100
AcDbDictionary
281
     1
  3
Standard
350
18
  0
DICTIONARY
  5
19
102
{ACAD_REACTORS
330
C
102
}
330
C
100
AcDbDictionary
281
     1
  0
ACDBDICTIONARYWDFLT
  5
E
102
{ACAD_REACTORS
330
C
102
}
330
C
100
AcDbDictionary
281
     1
  3
Normal
350
F
100
AcDbDictionaryWithDefault
340
F
  0
LAYOUT
  5
1E
102
{ACAD_REACTORS
330
1A
102
}
330
1A
100
AcDbPlotSettings
  1

  2
Brother HL-2170W series
  4

  6

 40
0.0
 41
0.0
 42
0.0
 43
0.0
 44
0.0
 45
0.0
 46
0.0
 47
0.0
 48
0.0
 49
0.0
140
0.0
141
0.0
142
1.0
143
1.0
 70
   688
 72
     0
 73
     0
 74
     5
  7

 75
    16
147
1.0
148
0.0
149
0.0
100
AcDbLayout
  1
Layout1
 70
     1
 71
     1
 10
0.0
 20
0.0
 11
12.0
 21
9.0
 12
0.0
 22
0.0
 32
0.0
 14
1.000000000000000E+20
 24
1.000000000000000E+20
 34
1.000000000000000E+20
 15
-1.000000000000000E+20
 25
-1.000000000000000E+20
 35
-1.000000000000000E+20
146
0.0
 13
0.0
 23
0.0
 33
0.0
 16
1.0
 26
0.0
 36
0.0
 17
0.0
 27
1.0
 37
0.0
 76
     0
330
1B
  0
LAYOUT
  5
26
102
{ACAD_REACTORS
330
1A
102
}
330
1A
100
AcDbPlotSettings
  1

  2
Brother HL-2170W series
  4

  6

 40
0.0
 41
0.0
 42
0.0
 43
0.0
 44
0.0
 45
0.0
 46
0.0
 47
0.0
 48
0.0
 49
0.0
140
0.0
141
0.0
142
1.0
143
1.0
 70
   688
 72
     0
 73
     0
 74
     5
  7

 75
    16
147
1.0
148
0.0
149
0.0
100
AcDbLayout
  1
Layout2
 70
     1
 71
     2
 10
0.0
 20
0.0
 11
12.0
 21
9.0
 12
0.0
 22
0.0
 32
0.0
 14
0.0
 24
0.0
 34
0.0
 15
0.0
 25
0.0
 35
0.0
146
0.0
 13
0.0
 23
0.0
 33
0.0
 16
1.0
 26
0.0
 36
0.0
 17
0.0
 27
1.0
 37
0.0
 76
     0
330
23
  0
LAYOUT
  5
22
102
{ACAD_REACTORS
330
1A
102
}
330
1A
100
AcDbPlotSettings
  1

  2
Brother HL-2170W series
  4

  6

 40
0.0
 41
0.0
 42
0.0
 43
0.0
 44
0.0
 45
0.0
 46
0.0
 47
0.0
 48
0.0
 49
0.0
140
0.0
141
0.0
142
1.0
143
1.0
 70
  1712
 72
     0
 73
     0
 74
     0
  7

 75
     0
147
1.0
148
0.0
149
0.0
100
AcDbLayout
  1
Model
 70
     1
 71
     0
 10
0.0
 20
0.0
 11
12.0
 21
9.0
 12
0.0
 22
0.0
 32
0.0
 14
0.0
 24
0.0
 34
0.0
 15
0.0
 25
0.0
 35
0.0
146
0.0
 13
0.0
 23
0.0
 33
0.0
 16
1.0
 26
0.0
 36
0.0
 17
0.0
 27
1.0
 37
0.0
 76
     0
330
1F
  0
MLINESTYLE
  5
18
102
{ACAD_REACTORS
330
17
102
}
330
17
100
AcDbMlineStyle
  2
STANDARD
 70
     0
  3

 62
   256
 51
90.0
 52
90.0
 71
     2
 49
0.5
 62
   256
  6
BYLAYER
 49
-0.5
 62
   256
  6
BYLAYER
  0
ACDBPLACEHOLDER
  5
F
102
{ACAD_REACTORS
330
E
102
}
330
E
  0
ENDSEC
  0
EOF
